  0
SECTION
  2
HEADER
  9
$ACADVER
  1
AC1015
  9
$ACADMAINTVER
 70
     6
  9
$DWGCODEPAGE
  3
ANSI_1254
  9
$INSBASE
 10
0.0
 20
0.0
 30
0.0
  9
$EXTMIN
 10
0.0
 20
0.0
 30
0.0
  9
$EXTMAX
 10
279.4
 20
215.9
 30
0.0
  9
$LIMMIN
 10
0.0
 20
0.0
  9
$LIMMAX
 10
279.4
 20
215.9
  9
$ORTHOMODE
 70
     0
  9
$REGENMODE
 70
     1
  9
$FILLMODE
 70
     1
  9
$QTEXTMODE
 70
     0
  9
$MIRRTEXT
 70
     1
  9
$LTSCALE
 40
1.0
  9
$ATTMODE
 70
     1
  9
$TEXTSIZE
 40
3.5
  9
$TRACEWID
 40
1.0
  9
$TEXTSTYLE
  7
Standard
  9
$CLAYER
  8
0
  9
$CELTYPE
  6
ByLayer
  9
$CECOLOR
 62
   256
  9
$CELTSCALE
 40
1.0
  9
$DISPSILH
 70
     0
  9
$DIMSCALE
 40
1.0
  9
$DIMASZ
 40
3.5
  9
$DIMEXO
 40
1.0
  9
$DIMDLI
 40
3.75
  9
$DIMRND
 40
0.0
  9
$DIMDLE
 40
0.0
  9
$DIMEXE
 40
1.0
  9
$DIMTP
 40
0.0
  9
$DIMTM
 40
0.0
  9
$DIMTXT
 40
3.5
  9
$DIMCEN
 40
2.5
  9
$DIMTSZ
 40
0.0
  9
$DIMTOL
 70
     0
  9
$DIMLIM
 70
     0
  9
$DIMTIH
 70
     1
  9
$DIMTOH
 70
     1
  9
$DIMSE1
 70
     0
  9
$DIMSE2
 70
     0
  9
$DIMTAD
 70
     1
  9
$DIMZIN
 70
     0
  9
$DIMBLK
  1

  9
$DIMASO
 70
     1
  9
$DIMSHO
 70
     1
  9
$DIMPOST
  1

  9
$DIMAPOST
  1

  9
$DIMALT
 70
     0
  9
$DIMALTD
 70
     3
  9
$DIMALTF
 40
0.0393700787
  9
$DIMLFAC
 40
1.0
  9
$DIMTOFL
 70
     1
  9
$DIMTVP
 40
0.0
  9
$DIMTIX
 70
     0
  9
$DIMSOXD
 70
     0
  9
$DIMSAH
 70
     0
  9
$DIMBLK1
  1

  9
$DIMBLK2
  1

  9
$DIMSTYLE
  2
ISO-25
  9
$DIMCLRD
 70
     0
  9
$DIMCLRE
 70
     0
  9
$DIMCLRT
 70
     0
  9
$DIMTFAC
 40
1.0
  9
$DIMGAP
 40
1.524
  9
$DIMJUST
 70
     0
  9
$DIMSD1
 70
     0
  9
$DIMSD2
 70
     0
  9
$DIMTOLJ
 70
     0
  9
$DIMTZIN
 70
     0
  9
$DIMALTZ
 70
     0
  9
$DIMALTTZ
 70
     0
  9
$DIMUPT
 70
     0
  9
$DIMDEC
 70
     2
  9
$DIMTDEC
 70
     2
  9
$DIMALTU
 70
     2
  9
$DIMALTTD
 70
     3
  9
$DIMTXSTY
  7
Standard
  9
$DIMAUNIT
 70
     0
  9
$DIMADEC
 70
     2
  9
$DIMALTRND
 40
0.0
  9
$DIMAZIN
 70
     0
  9
$DIMDSEP
 70
    44
  9
$DIMATFIT
 70
     3
  9
$DIMFRAC
 70
     0
  9
$DIMLDRBLK
  1

  9
$DIMLUNIT
 70
     2
  9
$DIMLWD
 70
    -2
  9
$DIMLWE
 70
    -2
  9
$DIMTMOVE
 70
     0
  9
$LUNITS
 70
     2
  9
$LUPREC
 70
     2
  9
$SKETCHINC
 40
1.0
  9
$FILLETRAD
 40
10.0
  9
$AUNITS
 70
     0
  9
$AUPREC
 70
     2
  9
$MENU
  1
.
  9
$ELEVATION
 40
0.0
  9
$PELEVATION
 40
0.0
  9
$THICKNESS
 40
0.0
  9
$LIMCHECK
 70
     0
  9
$CHAMFERA
 40
0.0
  9
$CHAMFERB
 40
0.0
  9
$CHAMFERC
 40
0.0
  9
$CHAMFERD
 40
0.0
  9
$SKPOLY
 70
     0
  9
$TDCREATE
 40
2459935.699890787
  9
$TDUCREATE
 40
2459935.574890787
  9
$TDUPDATE
 40
2459935.699890972
  9
$TDUUPDATE
 40
2459935.574890972
  9
$TDINDWG
 40
0.0000000116
  9
$TDUSRTIMER
 40
0.0000000116
  9
$USRTIMER
 70
     1
  9
$ANGBASE
 50
0.0
  9
$ANGDIR
 70
     0
  9
$PDMODE
 70
     0
  9
$PDSIZE
 40
-1.0
  9
$PLINEWID
 40
0.0
  9
$SPLFRAME
 70
     0
  9
$SPLINETYPE
 70
     6
  9
$SPLINESEGS
 70
     8
  9
$HANDSEED
  5
ED
  9
$SURFTAB1
 70
     6
  9
$SURFTAB2
 70
     6
  9
$SURFTYPE
 70
     6
  9
$SURFU
 70
     6
  9
$SURFV
 70
     6
  9
$UCSBASE
  2

  9
$UCSNAME
  2

  9
$UCSORG
 10
0.0
 20
0.0
 30
0.0
  9
$UCSXDIR
 10
1.0
 20
0.0
 30
0.0
  9
$UCSYDIR
 10
0.0
 20
1.0
 30
0.0
  9
$UCSORTHOREF
  2

  9
$UCSORTHOVIEW
 70
     0
  9
$UCSORGTOP
 10
0.0
 20
0.0
 30
0.0
  9
$UCSORGBOTTOM
 10
0.0
 20
0.0
 30
0.0
  9
$UCSORGLEFT
 10
0.0
 20
0.0
 30
0.0
  9
$UCSORGRIGHT
 10
0.0
 20
0.0
 30
0.0
  9
$UCSORGFRONT
 10
0.0
 20
0.0
 30
0.0
  9
$UCSORGBACK
 10
0.0
 20
0.0
 30
0.0
  9
$PUCSBASE
  2

  9
$PUCSNAME
  2

  9
$PUCSORG
 10
0.0
 20
0.0
 30
0.0
  9
$PUCSXDIR
 10
1.0
 20
0.0
 30
0.0
  9
$PUCSYDIR
 10
0.0
 20
1.0
 30
0.0
  9
$PUCSORTHOREF
  2

  9
$PUCSORTHOVIEW
 70
     0
  9
$PUCSORGTOP
 10
0.0
 20
0.0
 30
0.0
  9
$PUCSORGBOTTOM
 10
0.0
 20
0.0
 30
0.0
  9
$PUCSORGLEFT
 10
0.0
 20
0.0
 30
0.0
  9
$PUCSORGRIGHT
 10
0.0
 20
0.0
 30
0.0
  9
$PUCSORGFRONT
 10
0.0
 20
0.0
 30
0.0
  9
$PUCSORGBACK
 10
0.0
 20
0.0
 30
0.0
  9
$USERI1
 70
     0
  9
$USERI2
 70
     0
  9
$USERI3
 70
     0
  9
$USERI4
 70
     0
  9
$USERI5
 70
     0
  9
$USERR1
 40
0.0
  9
$USERR2
 40
0.0
  9
$USERR3
 40
0.0
  9
$USERR4
 40
0.0
  9
$USERR5
 40
0.0
  9
$WORLDVIEW
 70
     1
  9
$SHADEDGE
 70
     3
  9
$SHADEDIF
 70
    70
  9
$TILEMODE
 70
     1
  9
$MAXACTVP
 70
    64
  9
$PINSBASE
 10
0.0
 20
0.0
 30
0.0
  9
$PLIMCHECK
 70
     0
  9
$PEXTMIN
 10
1.0000000000E+20
 20
1.0000000000E+20
 30
1.0000000000E+20
  9
$PEXTMAX
 10
-1.0000000000E+20
 20
-1.0000000000E+20
 30
-1.0000000000E+20
  9
$PLIMMIN
 10
0.0
 20
0.0
  9
$PLIMMAX
 10
420.0
 20
297.0
  9
$UNITMODE
 70
     0
  9
$VISRETAIN
 70
     1
  9
$PLINEGEN
 70
     0
  9
$PSLTSCALE
 70
     1
  9
$TREEDEPTH
 70
  3020
  9
$CMLSTYLE
  2
Standard
  9
$CMLJUST
 70
     0
  9
$CMLSCALE
 40
20.0
  9
$PROXYGRAPHICS
 70
     1
  9
$MEASUREMENT
 70
     1
  9
$CELWEIGHT
370
    -1
  9
$ENDCAPS
280
     0
  9
$JOINSTYLE
280
     0
  9
$LWDISPLAY
290
     1
  9
$INSUNITS
 70
     4
  9
$HYPERLINKBASE
  1

  9
$STYLESHEET
  1

  9
$XEDIT
290
     1
  9
$CEPSNTYPE
380
     0
  9
$PSTYLEMODE
290
     1
  9
$FINGERPRINTGUID
  2
{bf5fc216-6b1f-4375-922d-9ebc70c0c879}
  9
$VERSIONGUID
  2
{FAEB1C32-E019-11D5-929B-00C0DF256EC4}
  9
$EXTNAMES
290
     1
  9
$PSVPSCALE
 40
0.0
  9
$OLESTARTUP
290
     0
  0
ENDSEC
  0
SECTION
  2
CLASSES
  0
CLASS
  1
ACDBDICTIONARYWDFLT
  2
AcDbDictionaryWithDefault
  3
ObjectDBX Classes
 90
        0
280
     0
281
     0
  0
CLASS
  1
VISUALSTYLE
  2
AcDbVisualStyle
  3
ObjectDBX Classes
 90
     4095
280
     0
281
     0
  0
CLASS
  1
MATERIAL
  2
AcDbMaterial
  3
ObjectDBX Classes
 90
     1153
280
     0
281
     0
  0
CLASS
  1
SCALE
  2
AcDbScale
  3
ObjectDBX Classes
 90
     1153
280
     0
281
     0
  0
CLASS
  1
TABLESTYLE
  2
AcDbTableStyle
  3
ObjectDBX Classes
 90
     4095
280
     0
281
     0
  0
CLASS
  1
MLEADERSTYLE
  2
AcDbMLeaderStyle
  3
ACDB_MLEADERSTYLE_CLASS
 90
     4095
280
     0
281
     0
  0
CLASS
  1
SUN
  2
AcDbSun
  3
SCENEOE
 90
     1153
280
     0
281
     0
  0
CLASS
  1
ACDBPLACEHOLDER
  2
AcDbPlaceHolder
  3
ObjectDBX Classes
 90
        0
280
     0
281
     0
  0
CLASS
  1
LAYOUT
  2
AcDbLayout
  3
ObjectDBX Classes
 90
        0
280
     0
281
     0
  0
ENDSEC
  0
SECTION
  2
TABLES
  0
TABLE
  2
VPORT
  5
8
330
0
100
AcDbSymbolTable
 70
     1
  0
VPORT
  5
29
330
8
100
AcDbSymbolTableRecord
100
AcDbViewportTableRecord
  2
*Active
 70
     0
 10
0.0
 20
0.0
 11
1.0
 21
1.0
 12
139.7
 22
107.95
 13
0.0
 23
0.0
 14
10.0
 24
10.0
 15
10.0
 25
10.0
 16
0.0
 26
0.0
 36
1.0
 17
0.0
 27
0.0
 37
0.0
 40
215.9
 41
1.2941176471
 42
50.0
 43
0.0
 44
0.0
 50
0.0
 51
0.0
 71
     0
 72
  2000
 73
     1
 74
     3
 75
     0
 76
     0
 77
     0
 78
     0
281
     0
 65
     1
110
0.0
120
0.0
130
0.0
111
1.0
121
0.0
131
0.0
112
0.0
122
1.0
132
0.0
 79
     0
146
0.0
  0
ENDTAB
  0
TABLE
  2
LTYPE
  5
5
330
0
100
AcDbSymbolTable
 70
     6
  0
LTYPE
  5
14
330
5
100
AcDbSymbolTableRecord
100
AcDbLinetypeTableRecord
  2
ByBlock
 70
     0
  3

 72
    65
 73
     0
 40
0.0
  0
LTYPE
  5
15
330
5
100
AcDbSymbolTableRecord
100
AcDbLinetypeTableRecord
  2
ByLayer
 70
     0
  3

 72
    65
 73
     0
 40
0.0
  0
LTYPE
  5
16
330
5
100
AcDbSymbolTableRecord
100
AcDbLinetypeTableRecord
  2
Continuous
 70
     0
  3
Solid line
 72
    65
 73
     0
 40
0.0
  0
LTYPE
  5
6E
330
5
100
AcDbSymbolTableRecord
100
AcDbLinetypeTableRecord
  2
HIDDEN
 70
     0
  3
Hidden __ __ __ __ __ __ __ __ __ __ __ __ __ __
 72
    65
 73
     2
 40
1.905
 49
1.27
 74
     0
 49
-0.635
 74
     0
  0
LTYPE
  5
6F
330
5
100
AcDbSymbolTableRecord
100
AcDbLinetypeTableRecord
  2
PHANTOM
 70
     0
  3
Phantom ______  __  __  ______  __  __  ______
 72
    65
 73
     6
 40
12.7
 49
6.35
 74
     0
 49
-1.27
 74
     0
 49
1.27
 74
     0
 49
-1.27
 74
     0
 49
1.27
 74
     0
 49
-1.27
 74
     0
  0
LTYPE
  5
70
330
5
100
AcDbSymbolTableRecord
100
AcDbLinetypeTableRecord
  2
CENTER
 70
     0
  3
Center ____ _ ____ _ ____ _ ____ _ ____ _ ____
 72
    65
 73
     4
 40
10.16
 49
6.35
 74
     0
 49
-1.27
 74
     0
 49
1.27
 74
     0
 49
-1.27
 74
     0
  0
LTYPE
  5
71
330
5
100
AcDbSymbolTableRecord
100
AcDbLinetypeTableRecord
  2
CENTERX2
 70
     0
  3
Center (2x) ________  __  ________  __  _____
 72
    65
 73
     4
 40
20.32
 49
12.7
 74
     0
 49
-2.54
 74
     0
 49
2.54
 74
     0
 49
-2.54
 74
     0
  0
LTYPE
  5
72
330
5
100
AcDbSymbolTableRecord
100
AcDbLinetypeTableRecord
  2
DOT2
 70
     0
  3
Dot (.5x) ........................................
 72
    65
 73
     2
 40
0.635
 49
0.0
 74
     0
 49
-0.635
 74
     0
  0
ENDTAB
  0
TABLE
  2
LAYER
  5
2
330
0
100
AcDbSymbolTable
 70
    17
  0
LAYER
  5
10
330
2
100
AcDbSymbolTableRecord
100
AcDbLayerTableRecord
  2
0
 70
     0
 62
     7
  6
Continuous
370
    -3
390
F
  0
LAYER
  5
73
330
2
100
AcDbSymbolTableRecord
100
AcDbLayerTableRecord
  2
FORMAT
 70
     0
 62
     7
  6
Continuous
370
    -3
390
F
  0
LAYER
  5
74
330
2
100
AcDbSymbolTableRecord
100
AcDbLayerTableRecord
  2
YARDIMCI_GEOMETRI
 70
     0
 62
    -6
  6
Continuous
290
     0
370
    -3
390
F
  0
LAYER
  5
75
330
2
100
AcDbSymbolTableRecord
100
AcDbLayerTableRecord
  2
SAYFA_CERCEVESI
 70
     0
 62
     7
  6
Continuous
370
    25
390
F
  0
LAYER
  5
76
330
2
100
AcDbSymbolTableRecord
100
AcDbLayerTableRecord
  2
ANTET
 70
     0
 62
     7
  6
Continuous
370
    -3
390
F
  0
LAYER
  5
77
330
2
100
AcDbSymbolTableRecord
100
AcDbLayerTableRecord
  2
OLCU
 70
     0
 62
   150
  6
Continuous
370
    -3
390
F
  0
LAYER
  5
78
330
2
100
AcDbSymbolTableRecord
100
AcDbLayerTableRecord
  2
METIN
 70
     0
 62
    96
  6
Continuous
370
    -3
390
F
  0
LAYER
  5
79
330
2
100
AcDbSymbolTableRecord
100
AcDbLayerTableRecord
  2
BALON
 70
     0
 62
     5
  6
Continuous
370
    -3
390
F
  0
LAYER
  5
7A
330
2
100
AcDbSymbolTableRecord
100
AcDbLayerTableRecord
  2
VURGU
 70
     0
 62
     7
  6
Continuous
370
    -3
390
F
  0
LAYER
  5
7B
330
2
100
AcDbSymbolTableRecord
100
AcDbLayerTableRecord
  2
SILIK
 70
     0
 62
     7
  6
Continuous
370
    -3
390
F
  0
LAYER
  5
7C
330
2
100
AcDbSymbolTableRecord
100
AcDbLayerTableRecord
  2
MODEL
 70
     0
 62
     7
  6
Continuous
370
    -3
390
F
  0
LAYER
  5
7D
330
2
100
AcDbSymbolTableRecord
100
AcDbLayerTableRecord
  2
DETAYLANDıRMA
 70
     0
 62
   190
  6
Continuous
370
    -3
390
F
  0
LAYER
  5
7E
330
2
100
AcDbSymbolTableRecord
100
AcDbLayerTableRecord
  2
TOLERANS
 70
     0
 62
   230
  6
Continuous
370
    -3
390
F
  0
LAYER
  5
7F
330
2
100
AcDbSymbolTableRecord
100
AcDbLayerTableRecord
  2
MERKEZ_CIZGILERI
 70
     0
 62
    30
  6
Continuous
370
    -3
390
F
  0
LAYER
  5
80
330
2
100
AcDbSymbolTableRecord
100
AcDbLayerTableRecord
  2
KESIT-DETAY_CIZGILERI
 70
     0
 62
     7
  6
Continuous
370
    -3
390
F
  0
LAYER
  5
81
330
2
100
AcDbSymbolTableRecord
100
AcDbLayerTableRecord
  2
\U+041E\U+0421\U+0415\U+0412\U+042B\U+0415
 70
     0
 62
     7
  6
Continuous
370
    -3
390
F
  0
LAYER
  5
82
330
2
100
AcDbSymbolTableRecord
100
AcDbLayerTableRecord
  2
\U+0412\U+041E\U+0414\U+042F\U+041D\U+042B\U+0415_\U+0417\U+041D\U+0410\U+041A\U+0418
 70
     0
 62
    11
  6
Continuous
370
    -3
390
F
  0
ENDTAB
  0
TABLE
  2
STYLE
  5
3
330
0
100
AcDbSymbolTable
 70
     1
  0
STYLE
  5
11
330
3
100
AcDbSymbolTableRecord
100
AcDbTextStyleTableRecord
  2
Standard
 70
     0
 40
0.0
 41
1.0
 50
0.0
 71
     0
 42
3.5
  3
txt
  4

  0
ENDTAB
  0
TABLE
  2
VIEW
  5
6
330
0
100
AcDbSymbolTable
 70
     0
  0
ENDTAB
  0
TABLE
  2
UCS
  5
7
330
0
100
AcDbSymbolTable
 70
     0
  0
ENDTAB
  0
TABLE
  2
APPID
  5
9
330
0
100
AcDbSymbolTable
 70
     1
  0
APPID
  5
12
330
9
100
AcDbSymbolTableRecord
100
AcDbRegAppTableRecord
  2
ACAD
 70
     0
  0
ENDTAB
  0
TABLE
  2
DIMSTYLE
  5
A
330
0
100
AcDbSymbolTable
 70
     1
100
AcDbDimStyleTable
  0
DIMSTYLE
105
27
330
A
100
AcDbSymbolTableRecord
100
AcDbDimStyleTableRecord
  2
ISO-25
 70
     0
 41
2.5
 42
0.625
 43
3.75
 44
1.25
 73
     0
 74
     0
 77
     1
 78
     8
140
2.5
141
2.5
143
0.0393700787
147
0.625
171
     3
172
     1
178
     0
271
     2
272
     2
274
     3
278
    44
283
     0
284
     8
340
11
  0
ENDTAB
  0
TABLE
  2
BLOCK_RECORD
  5
1
330
0
100
AcDbSymbolTable
 70
     5
  0
BLOCK_RECORD
  5
1F
330
1
100
AcDbSymbolTableRecord
100
AcDbBlockTableRecord
  2
*Model_Space
340
22
  0
BLOCK_RECORD
  5
1B
330
1
100
AcDbSymbolTableRecord
100
AcDbBlockTableRecord
  2
*Paper_Space
340
1E
  0
BLOCK_RECORD
  5
23
330
1
100
AcDbSymbolTableRecord
100
AcDbBlockTableRecord
  2
*Paper_Space0
340
26
  0
BLOCK_RECORD
  5
97
330
1
100
AcDbSymbolTableRecord
100
AcDbBlockTableRecord
  2
SW_CENTERMARKSYMBOL_0
340
0
102
{BLKREFS
331
A2
102
}
  0
BLOCK_RECORD
  5
AC
330
1
100
AcDbSymbolTableRecord
100
AcDbBlockTableRecord
  2
SW_CENTERMARKSYMBOL_1
340
0
102
{BLKREFS
331
B7
102
}
  0
BLOCK_RECORD
  5
BF
330
1
100
AcDbSymbolTableRecord
100
AcDbBlockTableRecord
  2
SW_CENTERMARKSYMBOL_2
340
0
102
{BLKREFS
331
CA
102
}
  0
BLOCK_RECORD
  5
D2
330
1
100
AcDbSymbolTableRecord
100
AcDbBlockTableRecord
  2
SW_CENTERMARKSYMBOL_3
340
0
102
{BLKREFS
331
DD
102
}
  0
ENDTAB
  0
ENDSEC
  0
SECTION
  2
BLOCKS
  0
BLOCK
  5
20
330
1F
100
AcDbEntity
  8
0
100
AcDbBlockBegin
  2
*Model_Space
 70
     0
 10
0.0
 20
0.0
 30
0.0
  3
*Model_Space
  1

  0
ENDBLK
  5
21
330
1F
100
AcDbEntity
  8
0
100
AcDbBlockEnd
  0
BLOCK
  5
1C
330
1B
100
AcDbEntity
 67
     1
  8
0
100
AcDbBlockBegin
  2
*Paper_Space
 70
     0
 10
0.0
 20
0.0
 30
0.0
  3
*Paper_Space
  1

  0
ENDBLK
  5
1D
330
1B
100
AcDbEntity
 67
     1
  8
0
100
AcDbBlockEnd
  0
BLOCK
  5
24
330
23
100
AcDbEntity
  8
0
100
AcDbBlockBegin
  2
*Paper_Space0
 70
     0
 10
0.0
 20
0.0
 30
0.0
  3
*Paper_Space0
  1

  0
ENDBLK
  5
25
330
23
100
AcDbEntity
  8
0
100
AcDbBlockEnd
  0
BLOCK
  5
98
330
97
100
AcDbEntity
  8
0
100
AcDbBlockBegin
  2
SW_CENTERMARKSYMBOL_0
 70
     0
 10
0.0
 20
0.0
 30
0.0
  3
SW_CENTERMARKSYMBOL_0
  1

  0
LINE
  5
9A
330
97
100
AcDbEntity
  8
FORMAT
 62
     0
100
AcDbLine
 10
0.0
 20
0.0
 30
0.0
 11
0.0
 21
2.5
 31
0.0
  0
LINE
  5
9B
330
97
100
AcDbEntity
  8
FORMAT
 62
     0
100
AcDbLine
 10
0.0
 20
0.0
 30
0.0
 11
-2.5
 21
0.0
 31
0.0
  0
LINE
  5
9C
330
97
100
AcDbEntity
  8
FORMAT
 62
     0
100
AcDbLine
 10
0.0
 20
0.0
 30
0.0
 11
0.0
 21
-2.5
 31
0.0
  0
LINE
  5
9D
330
97
100
AcDbEntity
  8
FORMAT
 62
     0
100
AcDbLine
 10
0.0
 20
0.0
 30
0.0
 11
2.5
 21
0.0
 31
0.0
  0
LINE
  5
9E
330
97
100
AcDbEntity
  8
FORMAT
 62
     0
100
AcDbLine
 10
0.0
 20
5.0
 30
0.0
 11
0.0
 21
115.0
 31
0.0
  0
LINE
  5
9F
330
97
100
AcDbEntity
  8
FORMAT
 62
     0
100
AcDbLine
 10
-5.0
 20
0.0
 30
0.0
 11
-115.0
 21
0.0
 31
0.0
  0
LINE
  5
A0
330
97
100
AcDbEntity
  8
FORMAT
 62
     0
100
AcDbLine
 10
0.0
 20
-5.0
 30
0.0
 11
0.0
 21
-115.0
 31
0.0
  0
LINE
  5
A1
330
97
100
AcDbEntity
  8
FORMAT
 62
     0
100
AcDbLine
 10
5.0
 20
0.0
 30
0.0
 11
115.0
 21
0.0
 31
0.0
  0
ENDBLK
  5
99
330
97
100
AcDbEntity
  8
0
100
AcDbBlockEnd
  0
BLOCK
  5
AD
330
AC
100
AcDbEntity
  8
0
100
AcDbBlockBegin
  2
SW_CENTERMARKSYMBOL_1
 70
     0
 10
0.0
 20
0.0
 30
0.0
  3
SW_CENTERMARKSYMBOL_1
  1

  0
LINE
  5
AF
330
AC
100
AcDbEntity
  8
FORMAT
 62
     0
100
AcDbLine
 10
0.0
 20
0.0
 30
0.0
 11
0.0
 21
2.5
 31
0.0
  0
LINE
  5
B0
330
AC
100
AcDbEntity
  8
FORMAT
 62
     0
100
AcDbLine
 10
0.0
 20
0.0
 30
0.0
 11
-2.5
 21
0.0
 31
0.0
  0
LINE
  5
B1
330
AC
100
AcDbEntity
  8
FORMAT
 62
     0
100
AcDbLine
 10
0.0
 20
0.0
 30
0.0
 11
0.0
 21
-2.5
 31
0.0
  0
LINE
  5
B2
330
AC
100
AcDbEntity
  8
FORMAT
 62
     0
100
AcDbLine
 10
0.0
 20
0.0
 30
0.0
 11
2.5
 21
0.0
 31
0.0
  0
LINE
  5
B3
330
AC
100
AcDbEntity
  8
FORMAT
 62
     0
100
AcDbLine
 10
0.0
 20
5.0
 30
0.0
 11
0.0
 21
115.0
 31
0.0
  0
LINE
  5
B4
330
AC
100
AcDbEntity
  8
FORMAT
 62
     0
100
AcDbLine
 10
-5.0
 20
0.0
 30
0.0
 11
-115.0
 21
0.0
 31
0.0
  0
LINE
  5
B5
330
AC
100
AcDbEntity
  8
FORMAT
 62
     0
100
AcDbLine
 10
0.0
 20
-5.0
 30
0.0
 11
0.0
 21
-115.0
 31
0.0
  0
LINE
  5
B6
330
AC
100
AcDbEntity
  8
FORMAT
 62
     0
100
AcDbLine
 10
5.0
 20
0.0
 30
0.0
 11
115.0
 21
0.0
 31
0.0
  0
ENDBLK
  5
AE
330
AC
100
AcDbEntity
  8
0
100
AcDbBlockEnd
  0
BLOCK
  5
C0
330
BF
100
AcDbEntity
  8
0
100
AcDbBlockBegin
  2
SW_CENTERMARKSYMBOL_2
 70
     0
 10
0.0
 20
0.0
 30
0.0
  3
SW_CENTERMARKSYMBOL_2
  1

  0
LINE
  5
C2
330
BF
100
AcDbEntity
  8
FORMAT
 62
     0
100
AcDbLine
 10
0.0
 20
0.0
 30
0.0
 11
0.0
 21
2.5
 31
0.0
  0
LINE
  5
C3
330
BF
100
AcDbEntity
  8
FORMAT
 62
     0
100
AcDbLine
 10
0.0
 20
0.0
 30
0.0
 11
-2.5
 21
0.0
 31
0.0
  0
LINE
  5
C4
330
BF
100
AcDbEntity
  8
FORMAT
 62
     0
100
AcDbLine
 10
0.0
 20
0.0
 30
0.0
 11
0.0
 21
-2.5
 31
0.0
  0
LINE
  5
C5
330
BF
100
AcDbEntity
  8
FORMAT
 62
     0
100
AcDbLine
 10
0.0
 20
0.0
 30
0.0
 11
2.5
 21
0.0
 31
0.0
  0
LINE
  5
C6
330
BF
100
AcDbEntity
  8
FORMAT
 62
     0
100
AcDbLine
 10
0.0
 20
5.0
 30
0.0
 11
0.0
 21
115.0
 31
0.0
  0
LINE
  5
C7
330
BF
100
AcDbEntity
  8
FORMAT
 62
     0
100
AcDbLine
 10
-5.0
 20
0.0
 30
0.0
 11
-115.0
 21
0.0
 31
0.0
  0
LINE
  5
C8
330
BF
100
AcDbEntity
  8
FORMAT
 62
     0
100
AcDbLine
 10
0.0
 20
-5.0
 30
0.0
 11
0.0
 21
-115.0
 31
0.0
  0
LINE
  5
C9
330
BF
100
AcDbEntity
  8
FORMAT
 62
     0
100
AcDbLine
 10
5.0
 20
0.0
 30
0.0
 11
115.0
 21
0.0
 31
0.0
  0
ENDBLK
  5
C1
330
BF
100
AcDbEntity
  8
0
100
AcDbBlockEnd
  0
BLOCK
  5
D3
330
D2
100
AcDbEntity
  8
0
100
AcDbBlockBegin
  2
SW_CENTERMARKSYMBOL_3
 70
     0
 10
0.0
 20
0.0
 30
0.0
  3
SW_CENTERMARKSYMBOL_3
  1

  0
LINE
  5
D5
330
D2
100
AcDbEntity
  8
FORMAT
 62
     0
100
AcDbLine
 10
0.0
 20
0.0
 30
0.0
 11
0.0
 21
2.5
 31
0.0
  0
LINE
  5
D6
330
D2
100
AcDbEntity
  8
FORMAT
 62
     0
100
AcDbLine
 10
0.0
 20
0.0
 30
0.0
 11
-2.5
 21
0.0
 31
0.0
  0
LINE
  5
D7
330
D2
100
AcDbEntity
  8
FORMAT
 62
     0
100
AcDbLine
 10
0.0
 20
0.0
 30
0.0
 11
0.0
 21
-2.5
 31
0.0
  0
LINE
  5
D8
330
D2
100
AcDbEntity
  8
FORMAT
 62
     0
100
AcDbLine
 10
0.0
 20
0.0
 30
0.0
 11
2.5
 21
0.0
 31
0.0
  0
LINE
  5
D9
330
D2
100
AcDbEntity
  8
FORMAT
 62
     0
100
AcDbLine
 10
0.0
 20
5.0
 30
0.0
 11
0.0
 21
115.0
 31
0.0
  0
LINE
  5
DA
330
D2
100
AcDbEntity
  8
FORMAT
 62
     0
100
AcDbLine
 10
-5.0
 20
0.0
 30
0.0
 11
-115.0
 21
0.0
 31
0.0
  0
LINE
  5
DB
330
D2
100
AcDbEntity
  8
FORMAT
 62
     0
100
AcDbLine
 10
0.0
 20
-5.0
 30
0.0
 11
0.0
 21
-115.0
 31
0.0
  0
LINE
  5
DC
330
D2
100
AcDbEntity
  8
FORMAT
 62
     0
100
AcDbLine
 10
5.0
 20
0.0
 30
0.0
 11
115.0
 21
0.0
 31
0.0
  0
ENDBLK
  5
D4
330
D2
100
AcDbEntity
  8
0
100
AcDbBlockEnd
  0
ENDSEC
  0
SECTION
  2
ENTITIES
  0
LINE
  5
83
330
1F
100
AcDbEntity
  8
0
  6
Continuous
 62
     7
370
    25
100
AcDbLine
 10
-64.0052785279
 20
70.9552797905
 30
0.0
 11
-64.0052785279
 21
-80.5447202095
 31
0.0
  0
LINE
  5
84
330
1F
100
AcDbEntity
  8
0
  6
Continuous
 62
     7
370
    25
100
AcDbLine
 10
160.9947214721
 20
-80.5447202095
 30
0.0
 11
160.9947214721
 21
70.9552797905
 31
0.0
  0
ARC
  5
85
330
1F
100
AcDbEntity
  8
0
  6
Continuous
 62
     7
370
    25
100
AcDbCircle
 10
160.9947214721
 20
70.9552797905
 30
0.0
 40
225.0
100
AcDbArc
 50
90.0
 51
180.0
  0
LINE
  5
86
330
1F
100
AcDbEntity
  8
0
  6
Continuous
 62
     7
370
    25
100
AcDbLine
 10
312.4947214721
 20
295.9552797905
 30
0.0
 11
160.9947214721
 21
295.9552797905
 31
0.0
  0
LINE
  5
87
330
1F
100
AcDbEntity
  8
0
  6
Continuous
 62
     7
370
    25
100
AcDbLine
 10
160.9947214721
 20
70.9552797905
 30
0.0
 11
312.4947214721
 21
70.9552797905
 31
0.0
  0
LINE
  5
88
330
1F
100
AcDbEntity
  8
0
  6
Continuous
 62
     7
370
    25
100
AcDbLine
 10
48.4947214721
 20
-80.5447202095
 30
0.0
 11
160.9947214721
 21
-80.5447202095
 31
0.0
  0
LINE
  5
89
330
1F
100
AcDbEntity
  8
0
  6
Continuous
 62
     7
370
    25
100
AcDbLine
 10
-64.0052785279
 20
-80.5447202095
 30
0.0
 11
48.4947214721
 21
-80.5447202095
 31
0.0
  0
LINE
  5
8A
330
1F
100
AcDbEntity
  8
0
  6
Continuous
 62
     7
370
    25
100
AcDbLine
 10
312.4947214721
 20
183.4552797905
 30
0.0
 11
312.4947214721
 21
70.9552797905
 31
0.0
  0
LINE
  5
8B
330
1F
100
AcDbEntity
  8
0
  6
Continuous
 62
     7
370
    25
100
AcDbLine
 10
312.4947214721
 20
295.9552797905
 30
0.0
 11
312.4947214721
 21
183.4552797905
 31
0.0
  0
LINE
  5
8C
330
1F
100
AcDbEntity
  8
0
  6
Continuous
 62
     1
370
    25
100
AcDbLine
 10
-64.0052785279
 20
70.9552797905
 30
0.0
 11
160.9947214721
 21
70.9552797905
 31
0.0
  0
LINE
  5
8D
330
1F
100
AcDbEntity
  8
0
  6
Continuous
 62
     1
370
    25
100
AcDbLine
 10
160.9947214721
 20
295.9552797905
 30
0.0
 11
160.9947214721
 21
70.9552797905
 31
0.0
  0
LINE
  5
8E
330
1F
100
AcDbEntity
  8
0
  6
Continuous
 62
     7
370
    25
100
AcDbLine
 10
-451.6751314305
 20
183.4552797905
 30
0.0
 11
-451.6751314305
 21
70.9552797905
 31
0.0
  0
LINE
  5
8F
330
1F
100
AcDbEntity
  8
0
  6
Continuous
 62
     7
370
    25
100
AcDbLine
 10
-226.6751314305
 20
70.9552797905
 30
0.0
 11
-226.6751314305
 21
183.4552797905
 31
0.0
  0
LINE
  5
90
330
1F
100
AcDbEntity
  8
0
  6
Continuous
 62
     7
370
    25
100
AcDbLine
 10
-451.6751314305
 20
70.9552797905
 30
0.0
 11
-451.6751314305
 21
-80.5447202095
 31
0.0
  0
LINE
  5
91
330
1F
100
AcDbEntity
  8
0
  6
Continuous
 62
     7
370
    25
100
AcDbLine
 10
-226.6751314305
 20
-80.5447202095
 30
0.0
 11
-226.6751314305
 21
70.9552797905
 31
0.0
  0
CIRCLE
  5
92
330
1F
100
AcDbEntity
  8
0
  6
Continuous
 62
     7
370
    25
100
AcDbCircle
 10
-339.1751314305
 20
183.4552797905
 30
0.0
 40
112.5
  0
CIRCLE
  5
93
330
1F
100
AcDbEntity
  8
0
  6
Continuous
 62
     7
370
    25
100
AcDbCircle
 10
-339.1751314305
 20
183.4552797905
 30
0.0
 40
99.10000000000002
  0
LINE
  5
94
330
1F
100
AcDbEntity
  8
0
  6
Continuous
 62
     7
370
    25
100
AcDbLine
 10
-451.6751314305
 20
-80.5447202095
 30
0.0
 11
-226.6751314305
 21
-80.5447202095
 31
0.0
  0
LINE
  5
95
330
1F
100
AcDbEntity
  8
0
  6
Continuous
 62
     1
370
    25
100
AcDbLine
 10
-339.1751314305
 20
70.9552797905
 30
0.0
 11
-226.6751314305
 21
70.9552797905
 31
0.0
  0
LINE
  5
96
330
1F
100
AcDbEntity
  8
0
  6
Continuous
 62
     1
370
    25
100
AcDbLine
 10
-451.6751314305
 20
70.9552797905
 30
0.0
 11
-339.1751314305
 21
70.9552797905
 31
0.0
  0
INSERT
  5
A2
330
1F
100
AcDbEntity
  8
FORMAT
 62
     7
100
AcDbBlockReference
  2
SW_CENTERMARKSYMBOL_0
 10
-339.1751314305
 20
183.4552797905
 30
0.0
  0
LINE
  5
A3
330
1F
100
AcDbEntity
  8
0
  6
Continuous
 62
     7
370
    25
100
AcDbLine
 10
312.4947214721
 20
623.155602423
 30
0.0
 11
160.9947214721
 21
623.155602423
 31
0.0
  0
LINE
  5
A4
330
1F
100
AcDbEntity
  8
0
  6
Continuous
 62
     7
370
    25
100
AcDbLine
 10
160.9947214721
 20
398.155602423
 30
0.0
 11
312.4947214721
 21
398.155602423
 31
0.0
  0
LINE
  5
A5
330
1F
100
AcDbEntity
  8
0
  6
Continuous
 62
     7
370
    25
100
AcDbLine
 10
160.9947214721
 20
623.155602423
 30
0.0
 11
48.4947214721
 21
623.155602423
 31
0.0
  0
LINE
  5
A6
330
1F
100
AcDbEntity
  8
0
  6
Continuous
 62
     7
370
    25
100
AcDbLine
 10
48.4947214721
 20
398.155602423
 30
0.0
 11
160.9947214721
 21
398.155602423
 31
0.0
  0
CIRCLE
  5
A7
330
1F
100
AcDbEntity
  8
0
  6
Continuous
 62
     7
370
    25
100
AcDbCircle
 10
48.4947214721
 20
510.655602423
 30
0.0
 40
99.10000000000002
  0
CIRCLE
  5
A8
330
1F
100
AcDbEntity
  8
0
  6
Continuous
 62
     7
370
    25
100
AcDbCircle
 10
48.4947214721
 20
510.655602423
 30
0.0
 40
112.5
  0
LINE
  5
A9
330
1F
100
AcDbEntity
  8
0
  6
Continuous
 62
     7
370
    25
100
AcDbLine
 10
312.4947214721
 20
623.155602423
 30
0.0
 11
312.4947214721
 21
398.155602423
 31
0.0
  0
LINE
  5
AA
330
1F
100
AcDbEntity
  8
0
  6
Continuous
 62
     1
370
    25
100
AcDbLine
 10
160.9947214721
 20
510.655602423
 30
0.0
 11
160.9947214721
 21
398.155602423
 31
0.0
  0
LINE
  5
AB
330
1F
100
AcDbEntity
  8
0
  6
Continuous
 62
     1
370
    25
100
AcDbLine
 10
160.9947214721
 20
623.155602423
 30
0.0
 11
160.9947214721
 21
510.655602423
 31
0.0
  0
INSERT
  5
B7
330
1F
100
AcDbEntity
  8
FORMAT
 62
     7
100
AcDbBlockReference
  2
SW_CENTERMARKSYMBOL_1
 10
48.4947214721
 20
510.655602423
 30
0.0
  0
LINE
  5
B8
330
1F
100
AcDbEntity
  8
0
  6
Continuous
 62
     7
370
    25
100
AcDbLine
 10
464.1548884484
 20
70.9552797905
 30
0.0
 11
464.1548884484
 21
-80.5447202095
 31
0.0
  0
LINE
  5
B9
330
1F
100
AcDbEntity
  8
0
  6
Continuous
 62
     7
370
    25
100
AcDbLine
 10
689.1548884484
 20
-80.5447202095
 30
0.0
 11
689.1548884484
 21
70.9552797905
 31
0.0
  0
LINE
  5
BA
330
1F
100
AcDbEntity
  8
0
  6
Continuous
 62
     7
370
    25
100
AcDbLine
 10
689.1548884484
 20
70.9552797905
 30
0.0
 11
689.1548884484
 21
183.4552797905
 31
0.0
  0
LINE
  5
BB
330
1F
100
AcDbEntity
  8
0
  6
Continuous
 62
     7
370
    25
100
AcDbLine
 10
464.1548884484
 20
183.4552797905
 30
0.0
 11
464.1548884484
 21
70.9552797905
 31
0.0
  0
LINE
  5
BC
330
1F
100
AcDbEntity
  8
0
  6
Continuous
 62
     7
370
    25
100
AcDbLine
 10
464.1548884484
 20
-80.5447202095
 30
0.0
 11
689.1548884484
 21
-80.5447202095
 31
0.0
  0
ARC
  5
BD
330
1F
100
AcDbEntity
  8
0
  6
Continuous
 62
     7
370
    25
100
AcDbCircle
 10
576.6548884484
 20
183.4552797905
 30
0.0
 40
112.5000000000005
100
AcDbArc
 50
0.0
 51
180.0
  0
LINE
  5
BE
330
1F
100
AcDbEntity
  8
0
  6
Continuous
 62
     1
370
    25
100
AcDbLine
 10
464.1548884484
 20
70.9552797905
 30
0.0
 11
689.1548884484
 21
70.9552797905
 31
0.0
  0
INSERT
  5
CA
330
1F
100
AcDbEntity
  8
FORMAT
 62
     7
100
AcDbBlockReference
  2
SW_CENTERMARKSYMBOL_2
 10
576.6548884484
 20
183.4552797905
 30
0.0
  0
LINE
  5
CB
330
1F
100
AcDbEntity
  8
0
  6
Continuous
 62
     7
370
    25
100
AcDbLine
 10
48.4947214721
 20
-475.6764695847
 30
0.0
 11
160.9947214721
 21
-475.6764695847
 31
0.0
  0
LINE
  5
CC
330
1F
100
AcDbEntity
  8
0
  6
Continuous
 62
     7
370
    25
100
AcDbLine
 10
160.9947214721
 20
-250.6764695847
 30
0.0
 11
48.4947214721
 21
-250.6764695847
 31
0.0
  0
LINE
  5
CD
330
1F
100
AcDbEntity
  8
0
  6
Continuous
 62
     7
370
    25
100
AcDbLine
 10
312.4947214721
 20
-250.6764695847
 30
0.0
 11
160.9947214721
 21
-250.6764695847
 31
0.0
  0
LINE
  5
CE
330
1F
100
AcDbEntity
  8
0
  6
Continuous
 62
     7
370
    25
100
AcDbLine
 10
160.9947214721
 20
-475.6764695847
 30
0.0
 11
312.4947214721
 21
-475.6764695847
 31
0.0
  0
ARC
  5
CF
330
1F
100
AcDbEntity
  8
0
  6
Continuous
 62
     7
370
    25
100
AcDbCircle
 10
48.4947214721
 20
-363.1764695847
 30
0.0
 40
112.5000000000004
100
AcDbArc
 50
90.0
 51
270.0
  0
LINE
  5
D0
330
1F
100
AcDbEntity
  8
0
  6
Continuous
 62
     7
370
    25
100
AcDbLine
 10
312.4947214721
 20
-250.6764695847
 30
0.0
 11
312.4947214721
 21
-475.6764695847
 31
0.0
  0
LINE
  5
D1
330
1F
100
AcDbEntity
  8
0
  6
Continuous
 62
     1
370
    25
100
AcDbLine
 10
160.9947214721
 20
-250.6764695847
 30
0.0
 11
160.9947214721
 21
-475.6764695847
 31
0.0
  0
INSERT
  5
DD
330
1F
100
AcDbEntity
  8
FORMAT
 62
     7
100
AcDbBlockReference
  2
SW_CENTERMARKSYMBOL_3
 10
48.4947214721
 20
-363.1764695847
 30
0.0
  0
LINE
  5
DE
330
1F
100
AcDbEntity
  8
0
  6
Continuous
 62
     7
370
    25
100
AcDbLine
 10
697.9079596128
 20
-127.4001208306
 30
0.0
 11
590.781282263
 21
-189.2430353012
 31
0.0
  0
LINE
  5
DF
330
1F
100
AcDbEntity
  8
0
  6
Continuous
 62
     7
370
    25
100
AcDbLine
 10
703.2721396846
 20
-384.1040293368
 30
0.0
 11
810.3988170343
 21
-322.2611148663
 31
0.0
  0
LINE
  5
E0
330
1F
100
AcDbEntity
  8
0
  6
Continuous
 62
     7
370
    25
100
AcDbLine
 10
454.9771980903
 20
-424.4573299462
 30
0.0
 11
454.9771980903
 21
-548.1632629469
 31
0.0
  0
LINE
  5
E1
330
1F
100
AcDbEntity
  8
0
  6
Continuous
 62
     7
370
    25
100
AcDbLine
 10
679.9771980903
 20
-548.1632629469
 30
0.0
 11
679.9771980903
 21
-424.4573299462
 31
0.0
  0
SPLINE
  5
E2
330
1F
100
AcDbEntity
  8
0
  6
Continuous
 62
     7
370
    25
100
AcDbSpline
210
0.0
220
0.0
230
1.0
 70
     8
 71
     3
 72
    41
 73
    37
 74
     0
 42
0.00000001
 43
0.00000001
 40
0.0
 40
0.0
 40
0.0
 40
0.0
 40
0.0191702052196795
 40
0.0486498001320735
 40
0.0781952911843915
 40
0.1078750037388269
 40
0.1376435461144619
 40
0.167457069123983
 40
0.1972705543558647
 40
0.2270566103521451
 40
0.2567952734820344
 40
0.2864738816794896
 40
0.3160864346071172
 40
0.3456327053638137
 40
0.3751172700084349
 40
0.4045485669786207
 40
0.4339380482053838
 40
0.463299445141756
 40
0.4926481469219066
 40
0.5220006721008932
 40
0.5513727760348832
 40
0.5807775675808294
 40
0.6102324334925742
 40
0.63975426225797
 40
0.6693589393479091
 40
0.6990607501620961
 40
0.7288716579998624
 40
0.7588004331665307
 40
0.7888516260565742
 40
0.8190244067322944
 40
0.8493113399591724
 40
0.8796972282528939
 40
0.9101582285484524
 40
0.9406560554593416
 40
0.9711394444548421
 40
1.0
 40
1.0
 40
1.0
 40
1.0
 10
590.7812822630013
 20
-189.2430353011845
 30
0.0
 10
589.2704581796066
 20
-190.1296706411692
 30
0.0
 10
585.4363161425449
 20
-192.3797577730488
 30
0.0
 10
579.3868886989333
 20
-196.2328708349712
 30
0.0
 10
572.6495083902951
 20
-200.8460089900118
 30
0.0
 10
566.0284189109149
 20
-205.7293363124867
 30
0.0
 10
559.5274106570122
 20
-210.8703145027269
 30
0.0
 10
553.1614017463727
 20
-216.2558263480383
 30
0.0
 10
546.9426745537407
 20
-221.8705984683781
 30
0.0
 10
540.8816900748172
 20
-227.7001843056843
 30
0.0
 10
534.9864472146548
 20
-233.7312562021601
 30
0.0
 10
529.2634916439505
 20
-239.9513711063332
 30
0.0
 10
523.718143141449
 20
-246.3490495857687
 30
0.0
 10
518.3547810056725
 20
-252.9138137777743
 30
0.0
 10
513.1771163872314
 20
-259.6361445797552
 30
0.0
 10
508.188439559189
 20
-266.5074035807002
 30
0.0
 10
503.3918306638342
 20
-273.5197348084704
 30
0.0
 10
498.7903336153298
 20
-280.665961066706
 30
0.0
 10
494.3870968859099
 20
-287.9394817510271
 30
0.0
 10
490.185555585234
 20
-295.3340544864526
 30
0.0
 10
486.189637194749
 20
-302.8434436373288
 30
0.0
 10
482.4035899669297
 20
-310.461683757413
 30
0.0
 10
478.8319902596064
 20
-318.1831248335099
 30
0.0
 10
475.479720648851
 20
-326.0026009872792
 30
0.0
 10
472.3522250673733
 20
-333.9149266546578
 30
0.0
 10
469.4555601280296
 20
-341.9147318414761
 30
0.0
 10
466.7964326722548
 20
-349.9962593522661
 30
0.0
 10
464.3822227033583
 20
-358.1531168009878
 30
0.0
 10
462.2209535370267
 20
-366.3779839746963
 30
0.0
 10
460.3212924217743
 20
-374.6622733297455
 30
0.0
 10
458.6921926751337
 20
-382.9957963787259
 30
0.0
 10
457.3435524122394
 20
-391.3663483119464
 30
0.0
 10
456.2827216000468
 20
-399.7592322092772
 30
0.0
 10
455.5262260096258
 20
-408.1556381789673
 30
0.0
 10
455.0616429246009
 20
-416.394657932206
 30
0.0
 10
455.0048284813581
 20
-421.8192197219287
 30
0.0
 10
454.9771980902934
 20
-424.4573299461854
 30
0.0
  0
SPLINE
  5
E3
330
1F
100
AcDbEntity
  8
0
  6
Continuous
 62
     7
370
    25
100
AcDbSpline
210
0.0
220
0.0
230
1.0
 70
     8
 71
     3
 72
    36
 73
    32
 74
     0
 42
0.00000001
 43
0.00000001
 40
0.0
 40
0.0
 40
0.0
 40
0.0
 40
0.0079303028528994
 40
0.0458395598986549
 40
0.0825690379461398
 40
0.1184007908514118
 40
0.1535930689331029
 40
0.1883757818720013
 40
0.2229467283621253
 40
0.2574686851360438
 40
0.29206758652312
 40
0.3268080806053844
 40
0.3617463096865869
 40
0.3969123091857277
 40
0.432305942980196
 40
0.4679021851602093
 40
0.5036574248714573
 40
0.5395165801070311
 40
0.5754082985358281
 40
0.6112709975846833
 40
0.6470661437572739
 40
0.6827777740291469
 40
0.7184194124492655
 40
0.7540398972376416
 40
0.7897277075150511
 40
0.825589082325778
 40
0.8617652378444489
 40
0.8984537049534088
 40
0.9358894196428162
 40
0.9743401027623145
 40
1.0
 40
1.0
 40
1.0
 40
1.0
 10
679.9763862222197
 20
-424.5427835905004
 30
0.0
 10
679.9762671927846
 20
-424.5505566655041
 30
0.0
 10
679.9755791664858
 20
-424.5954874006647
 30
0.0
 10
679.9836807924465
 20
-424.3905791069761
 30
0.0
 10
680.030050324422
 20
-423.9126455704919
 30
0.0
 10
680.1337047000486
 20
-423.1339841162867
 30
0.0
 10
680.3117215916869
 20
-422.1001499921424
 30
0.0
 10
680.5798828520457
 20
-420.819224762787
 30
0.0
 10
680.9516654730487
 20
-419.3110212379158
 30
0.0
 10
681.4382695711178
 20
-417.5949624118149
 30
0.0
 10
682.0480778267332
 20
-415.6943100392879
 30
0.0
 10
682.7862971432434
 20
-413.6352366788607
 30
0.0
 10
683.6546209181292
 20
-411.4468407885886
 30
0.0
 10
684.6512069926355
 20
-409.1602373982972
 30
0.0
 10
685.7702773757873
 20
-406.8086838999361
 30
0.0
 10
687.0018994616753
 20
-404.427141840012
 30
0.0
 10
688.3319836750479
 20
-402.0514787539253
 30
0.0
 10
689.7422952667511
 20
-399.7177905724458
 30
0.0
 10
691.2108479201472
 20
-397.4612065735347
 30
0.0
 10
692.7126040760935
 20
-395.3145442993178
 30
0.0
 10
694.2204148377111
 20
-393.307039896236
 30
0.0
 10
695.7057624654082
 20
-391.4636708030579
 30
0.0
 10
697.1394025010603
 20
-389.804766842641
 30
0.0
 10
698.4920850529049
 20
-388.3456748162304
 30
0.0
 10
699.7347344362797
 20
-387.097042239062
 30
0.0
 10
700.8392811255637
 20
-386.0645608749026
 30
0.0
 10
701.7779177472506
 20
-385.2497150812325
 30
0.0
 10
702.5286685805206
 20
-384.6467513953245
 30
0.0
 10
703.0550419396335
 20
-384.2560169676447
 30
0.0
 10
703.3429402240679
 20
-384.0626623758538
 30
0.0
 10
703.3384958365649
 20
-384.065794117803
 30
0.0
 10
703.3367169956003
 20
-384.0670475798078
 30
0.0
  0
LWPOLYLINE
  5
E4
330
1F
100
AcDbEntity
  8
0
  6
Continuous
 62
     7
370
    25
100
AcDbPolyline
 90
      113
 70
   128
 43
0.0
 10
674.6038754401
 20
-178.9076615584
 10
674.7290215391
 20
-184.1305853209
 10
675.1040660802
 20
-189.4815664434
 10
675.7278290345
 20
-194.9437687594
 10
676.598347813
 20
-200.5000061597
 10
677.7128834415
 20
-206.1327966659
 10
679.0679291787
 20
-211.824417435
 10
680.6592215492
 20
-217.5569605225
 10
682.4817537587
 20
-223.3123892269
 10
684.5297914465
 20
-229.0725948403
 10
686.7968907283
 20
-234.8194536246
 10
689.275918471
 20
-240.5348838361
 10
691.9590747362
 20
-246.2009026168
 10
694.8379173217
 20
-251.7996825753
 10
697.9033883235
 20
-257.3136078786
 10
701.1458426359
 20
-262.7253296778
 10
704.5550782979
 20
-268.0178206938
 10
708.1203685928
 20
-273.1744287919
 10
711.8304957984
 20
-278.1789293754
 10
715.6737864818
 20
-283.0155764338
 10
719.6381482287
 20
-287.6691520861
 10
723.7111076903
 20
-292.1250144617
 10
727.8798498294
 20
-296.369143769
 10
732.1312582408
 20
-300.3881864071
 10
736.4519564209
 20
-304.1694969808
 10
740.8283498547
 20
-307.7011780883
 10
745.2466687893
 20
-310.9721177541
 10
749.6930115587
 20
-313.9720243919
 10
754.1533883235
 20
-316.6914591856
 10
758.6137650884
 20
-319.1218657872
 10
763.0601078578
 20
-321.2555972384
 10
767.4784267924
 20
-323.0859400306
 10
771.8548202261
 20
-324.6071352282
 10
776.1755184062
 20
-325.8143965884
 10
780.4269268177
 20
-326.7039256204
 10
784.5956689568
 20
-327.2729235365
 10
788.6686284184
 20
-327.519600059
 10
792.6329901653
 20
-327.4431790522
 10
796.4762808487
 20
-327.0439009648
 10
800.1864080543
 20
-326.3230220735
 10
803.7516983492
 20
-325.2828105299
 10
807.1609340112
 20
-323.9265392244
 10
810.4033883235
 20
-322.2584754883
 10
813.4688593254
 20
-320.2838676672
 10
816.3477019108
 20
-318.0089286079
 10
819.0308581761
 20
-315.4408161102
 10
821.5098859188
 20
-312.5876104064
 10
823.7769852006
 20
-309.4582887369
 10
825.8250228884
 20
-306.0626971056
 10
827.6475550978
 20
-302.4115193001
 10
829.2388474684
 20
-298.5162432763
 10
830.5938932056
 20
-294.3891250139
 10
831.7084288341
 20
-290.0431499538
 10
832.5789476126
 20
-285.4919921414
 10
833.2027105669
 20
-280.749971203
 10
833.577755108
 20
-275.8320072907
 10
833.702901207
 20
-270.7535741385
 10
833.577755108
 20
-265.5306503759
 10
833.2027105669
 20
-260.1796692535
 10
832.5789476126
 20
-254.7174669375
 10
831.7084288341
 20
-249.1612295371
 10
830.5938932056
 20
-243.528439031
 10
829.2388474684
 20
-237.8368182618
 10
827.6475550978
 20
-232.1042751744
 10
825.8250228884
 20
-226.34884647
 10
823.7769852006
 20
-220.5886408566
 10
821.5098859188
 20
-214.8417820723
 10
819.0308581761
 20
-209.1263518608
 10
816.3477019108
 20
-203.4603330801
 10
813.4688593254
 20
-197.8615531216
 10
810.4033883235
 20
-192.3476278183
 10
807.1609340112
 20
-186.9359060191
 10
803.7516983492
 20
-181.6434150031
 10
800.1864080543
 20
-176.4868069049
 10
796.4762808487
 20
-171.4823063215
 10
792.6329901653
 20
-166.6456592631
 10
788.6686284184
 20
-161.9920836108
 10
784.5956689568
 20
-157.5362212352
 10
780.4269268177
 20
-153.2920919279
 10
776.1755184062
 20
-149.2730492898
 10
771.8548202261
 20
-145.491738716
 10
767.4784267924
 20
-141.9600576086
 10
763.0601078578
 20
-138.6891179428
 10
758.6137650884
 20
-135.689211305
 10
754.1533883235
 20
-132.9697765113
 10
749.6930115587
 20
-130.5393699097
 10
745.2466687893
 20
-128.4056384585
 10
740.8283498547
 20
-126.5752956663
 10
736.4519564209
 20
-125.0541004687
 10
732.1312582408
 20
-123.8468391084
 10
727.8798498294
 20
-122.9573100765
 10
723.7111076903
 20
-122.3883121604
 10
719.6381482287
 20
-122.1416356379
 10
715.6737864818
 20
-122.2180566447
 10
711.8304957984
 20
-122.6173347321
 10
708.1203685928
 20
-123.3382136234
 10
704.5550782979
 20
-124.378425167
 10
701.1458426359
 20
-125.7346964725
 10
697.9033883235
 20
-127.4027602086
 10
694.8379173217
 20
-129.3773680297
 10
691.9590747362
 20
-131.652307089
 10
689.275918471
 20
-134.2204195866
 10
686.7968907283
 20
-137.0736252905
 10
684.5297914465
 20
-140.20294696
 10
682.4817537587
 20
-143.5985385912
 10
680.6592215492
 20
-147.2497163968
 10
679.0679291787
 20
-151.1449924206
 10
677.7128834415
 20
-155.2721106829
 10
676.598347813
 20
-159.618085743
 10
675.7278290345
 20
-164.1692435554
 10
675.1040660802
 20
-168.9112644939
 10
674.7290215391
 20
-173.8292284062
 10
674.6038754401
 20
-178.9076615584
  0
LWPOLYLINE
  5
E5
330
1F
100
AcDbEntity
  8
0
  6
Continuous
 62
     7
370
    25
100
AcDbPolyline
 90
      106
 70
   128
 43
0.0
 10
684.079106308
 20
-184.3775959076
 10
684.2045301794
 20
-179.6106976049
 10
684.5803528088
 20
-175.0056748805
 10
685.2052288486
 20
-170.5790125206
 10
686.0769214049
 20
-166.3465568276
 10
687.1923100445
 20
-162.3234588943
 10
688.5474019655
 20
-158.5241203673
 10
690.1373462906
 20
-154.9621418923
 10
691.9564514318
 20
-151.6502744279
 10
693.9982054647
 20
-148.6003736001
 10
696.2552994399
 20
-145.8233572622
 10
698.7196535467
 20
-143.329166412
 10
701.3824460369
 20
-141.1267296055
 10
704.2341448046
 20
-139.2239309948
 10
707.2645415083
 20
-137.627582105
 10
710.4627881143
 20
-136.3433974509
 10
713.8174357297
 20
-135.3759740802
 10
717.3164755868
 20
-134.7287751176
 10
720.9473820311
 20
-134.4041173673
 10
724.6971573597
 20
-134.4031630199
 10
728.5523783502
 20
-134.7259154916
 10
732.4992443121
 20
-135.3712194124
 10
736.5236264895
 20
-136.3367647617
 10
740.6111186388
 20
-137.6190951378
 10
744.7470885988
 20
-139.2136201306
 10
748.9167306705
 20
-141.1146317547
 10
753.1051186176
 20
-143.3153248817
 10
757.2972590981
 20
-145.8078216015
 10
761.4781453372
 20
-148.5831994225
 10
765.6328108473
 20
-151.6315232127
 10
769.746383004
 20
-154.9418807638
 10
773.8041362867
 20
-158.5024218551
 10
777.7915449917
 20
-162.3004006736
 10
781.6943352308
 20
-166.3222214407
 10
785.4985360279
 20
-170.553487082
 10
789.1905293313
 20
-174.9790507646
 10
792.7570987634
 20
-179.583070119
 10
796.185476931
 20
-184.349063951
 10
799.4633911303
 20
-189.2599712396
 10
802.5791072791
 20
-194.2982122112
 10
805.5214719222
 20
-199.4457512707
 10
808.2799521579
 20
-204.6841615643
 10
810.8446733428
 20
-209.9946909427
 10
813.2064544407
 20
-215.3583290889
 10
815.3568408883
 20
-220.7558755705
 10
817.2881348602
 20
-226.1680085719
 10
818.9934228252
 20
-231.5753540617
 10
820.466600295
 20
-236.9585551462
 10
821.7023936765
 20
-242.2983413629
 10
822.6963791502
 20
-247.5755976629
 10
823.4449985061
 20
-252.7714328383
 10
823.9455718812
 20
-257.8672471477
 10
824.1963073527
 20
-262.8447988983
 10
824.1963073527
 20
-267.6862697469
 10
823.9455718812
 20
-272.3743284841
 10
823.4449985061
 20
-276.8921930766
 10
822.6963791502
 20
-281.2236907416
 10
821.7023936765
 20
-285.3533158417
 10
820.466600295
 20
-289.2662853907
 10
818.9934228252
 20
-292.9485919732
 10
817.2881348602
 20
-296.3870538875
 10
815.3568408883
 20
-299.5693623321
 10
813.2064544407
 20
-302.4841254688
 10
810.8446733428
 20
-305.1209092021
 10
808.2799521579
 20
-307.4702745305
 10
805.5214719222
 20
-309.523811336
 10
802.5791072791
 20
-311.2741684896
 10
799.4633911303
 20
-312.7150801671
 10
796.185476931
 20
-313.8413882786
 10
792.7570987634
 20
-314.6490609335
 10
789.1905293313
 20
-315.1352068731
 10
785.4985360279
 20
-315.2980858214
 10
781.6943352308
 20
-315.1371147137
 10
777.7915449917
 20
-314.6528697851
 10
773.8041362867
 20
-313.8470845066
 10
769.746383004
 20
-312.7226433803
 10
765.6328108472
 20
-311.2835716138
 10
761.4781453372
 20
-309.5350207104
 10
757.2972590981
 20
-307.4832500285
 10
753.1051186176
 20
-305.1356043747
 10
748.9167306705
 20
-302.5004877112
 10
744.7470885988
 20
-299.5873330716
 10
740.6111186388
 20
-296.4065687936
 10
736.5236264895
 20
-292.9695811876
 10
732.4992443121
 20
-289.2886737774
 10
728.5523783502
 20
-285.3770232561
 10
724.6971573597
 20
-281.2486323174
 10
720.9473820311
 20
-276.9182795294
 10
717.3164755868
 20
-272.4014664312
 10
713.8174357297
 20
-267.7143620413
 10
710.4627881142
 20
-262.8737449771
 10
707.2645415083
 20
-257.8969433913
 10
704.2341448046
 20
-252.801772942
 10
701.3824460369
 20
-247.6064730169
 10
698.7196535467
 20
-242.3296414414
 10
696.2552994399
 20
-236.9901679032
 10
693.9982054647
 20
-231.6071663315
 10
691.9564514318
 20
-226.1999064751
 10
690.1373462906
 20
-220.7877449207
 10
688.5474019655
 20
-215.3900558021
 10
687.1923100445
 20
-210.0261614455
 10
686.0769214049
 20
-204.7152632006
 10
685.2052288486
 20
-199.4763727046
 10
684.5803528088
 20
-194.328243826
 10
684.2045301794
 20
-189.2893055299
 10
684.079106308
 20
-184.3775959076
  0
LWPOLYLINE
  5
E6
330
1F
100
AcDbEntity
  8
0
  6
Continuous
 62
     7
370
    25
100
AcDbPolyline
 90
      113
 70
   128
 43
0.0
 10
487.9276852068
 20
-502.2403066568
 10
492.5132080707
 20
-499.7376312644
 10
497.3345953812
 20
-497.387320825
 10
502.3766772701
 20
-495.1967702847
 10
507.6235894823
 20
-493.1728719261
 10
513.058823291
 20
-491.3219936822
 10
518.6652774396
 20
-489.6499591006
 10
524.4253119492
 20
-488.1620290207
 10
530.3208036203
 20
-486.8628850211
 10
536.333203055
 20
-485.7566146894
 10
542.4435930202
 20
-484.8466987613
 10
548.6327479685
 20
-484.136000169
 10
554.8811945287
 20
-483.6267550333
 10
561.1692727761
 20
-483.3205656276
 10
567.4771980903
 20
-483.2183953373
 10
573.7851234045
 20
-483.3205656276
 10
580.0732016519
 20
-483.6267550333
 10
586.3216482121
 20
-484.136000169
 10
592.5108031604
 20
-484.8466987613
 10
598.6211931256
 20
-485.7566146894
 10
604.6335925602
 20
-486.8628850211
 10
610.5290842314
 20
-488.1620290207
 10
616.289118741
 20
-489.6499591006
 10
621.8955728896
 20
-491.3219936822
 10
627.3308066983
 20
-493.1728719261
 10
632.5777189105
 20
-495.1967702847
 10
637.6198007994
 20
-497.387320825
 10
642.4411881099
 20
-499.7376312644
 10
647.0267109738
 20
-502.2403066568
 10
651.3619416396
 20
-504.8874726597
 10
655.4332398679
 20
-507.6708003092
 10
659.2277958482
 20
-510.581532227
 10
662.7336705035
 20
-513.6105101735
 10
665.939833055
 20
-516.7482038636
 10
668.8361957293
 20
-519.9847409519
 10
671.4136454978
 20
-523.3099380955
 10
673.66407275
 20
-526.713332994
 10
675.5803968091
 20
-530.1842173077
 10
677.1565882107
 20
-533.7116703507
 10
678.3876876736
 20
-537.2845934506
 10
679.2698217033
 20
-540.8917448694
 10
679.8002147798
 20
-544.5217751742
 10
679.9771980903
 20
-548.1632629469
 10
679.8002147798
 20
-551.8047507195
 10
679.2698217033
 20
-555.4347810244
 10
678.3876876736
 20
-559.0419324432
 10
677.1565882107
 20
-562.614855543
 10
675.5803968091
 20
-566.142308586
 10
673.66407275
 20
-569.6131928998
 10
671.4136454978
 20
-573.0165877982
 10
668.8361957293
 20
-576.3417849418
 10
665.939833055
 20
-579.5783220302
 10
662.7336705035
 20
-582.7160157202
 10
659.2277958482
 20
-585.7449936668
 10
655.4332398679
 20
-588.6557255845
 10
651.3619416396
 20
-591.4390532341
 10
647.0267109738
 20
-594.0862192369
 10
642.4411881099
 20
-596.5888946294
 10
637.6198007994
 20
-598.9392050688
 10
632.5777189105
 20
-601.129755609
 10
627.3308066983
 20
-603.1536539676
 10
621.8955728896
 20
-605.0045322116
 10
616.289118741
 20
-606.6765667932
 10
610.5290842314
 20
-608.1644968731
 10
604.6335925602
 20
-609.4636408727
 10
598.6211931256
 20
-610.5699112044
 10
592.5108031604
 20
-611.4798271325
 10
586.3216482121
 20
-612.1905257247
 10
580.0732016519
 20
-612.6997708605
 10
573.7851234045
 20
-613.0059602661
 10
567.4771980903
 20
-613.1081305565
 10
561.1692727761
 20
-613.0059602661
 10
554.8811945287
 20
-612.6997708605
 10
548.6327479685
 20
-612.1905257247
 10
542.4435930202
 20
-611.4798271325
 10
536.333203055
 20
-610.5699112044
 10
530.3208036203
 20
-609.4636408727
 10
524.4253119492
 20
-608.1644968731
 10
518.6652774396
 20
-606.6765667932
 10
513.058823291
 20
-605.0045322116
 10
507.6235894823
 20
-603.1536539676
 10
502.3766772701
 20
-601.129755609
 10
497.3345953812
 20
-598.9392050688
 10
492.5132080707
 20
-596.5888946294
 10
487.9276852068
 20
-594.0862192369
 10
483.5924545409
 20
-591.4390532341
 10
479.5211563126
 20
-588.6557255845
 10
475.7266003324
 20
-585.7449936668
 10
472.2207256771
 20
-582.7160157202
 10
469.0145631256
 20
-579.5783220302
 10
466.1182004513
 20
-576.3417849418
 10
463.5407506828
 20
-573.0165877982
 10
461.2903234306
 20
-569.6131928998
 10
459.3739993715
 20
-566.142308586
 10
457.7978079698
 20
-562.614855543
 10
456.566708507
 20
-559.0419324432
 10
455.6845744773
 20
-555.4347810244
 10
455.1541814008
 20
-551.8047507195
 10
454.9771980903
 20
-548.1632629469
 10
455.1541814008
 20
-544.5217751742
 10
455.6845744773
 20
-540.8917448694
 10
456.566708507
 20
-537.2845934506
 10
457.7978079698
 20
-533.7116703507
 10
459.3739993715
 20
-530.1842173077
 10
461.2903234306
 20
-526.713332994
 10
463.5407506828
 20
-523.3099380955
 10
466.1182004513
 20
-519.9847409519
 10
469.0145631256
 20
-516.7482038636
 10
472.2207256771
 20
-513.6105101735
 10
475.7266003324
 20
-510.581532227
 10
479.5211563126
 20
-507.6708003092
 10
483.5924545409
 20
-504.8874726597
 10
487.9276852068
 20
-502.2403066568
  0
LWPOLYLINE
  5
E7
330
1F
100
AcDbEntity
  8
0
  6
Continuous
 62
     7
370
    25
100
AcDbPolyline
 90
      106
 70
   128
 43
0.0
 10
497.4029160747
 20
-507.7102410061
 10
493.3376067969
 20
-510.2019054175
 10
489.537698014
 20
-512.8294616366
 10
486.0167924134
 20
-515.5835036941
 10
482.7874939232
 20
-518.454172834
 10
479.861362594
 20
-521.431192806
 10
477.2488732164
 20
-524.5039066511
 10
474.9593778244
 20
-527.6613148514
 10
473.0010722173
 20
-530.8921147049
 10
471.380966621
 20
-534.1847407866
 10
470.1048605929
 20
-537.5274063497
 10
469.1773222615
 20
-540.908145519
 10
468.6016719732
 20
-544.3148561258
 10
468.3799704067
 20
-547.7353430302
 10
468.5130111961
 20
-551.1573617768
 10
469.0003180899
 20
-554.5686624267
 10
469.8401466558
 20
-557.9570334089
 10
471.0294905256
 20
-561.3103452347
 10
472.5640921568
 20
-564.616593918
 10
474.438458074
 20
-567.8639439466
 10
476.6458785336
 20
-571.0407706503
 10
479.1784515432
 20
-574.135701814
 10
482.0271111489
 20
-577.1376583873
 10
485.1816598884
 20
-580.0358941447
 10
488.6308052961
 20
-582.8200341546
 10
492.3622003266
 20
-585.4801119182
 10
496.362487554
 20
-588.0066050476
 10
500.6173469884
 20
-590.3904693529
 10
505.1115473373
 20
-592.6231712188
 10
509.8290005297
 20
-594.696718152
 10
514.7528193076
 20
-596.6036873927
 10
519.8653776778
 20
-598.3372524859
 10
525.148374008
 20
-599.8912077184
 10
530.5828965427
 20
-601.2599903339
 10
536.1494911015
 20
-602.4387004458
 10
541.8282307206
 20
-603.4231185779
 10
547.5987869862
 20
-604.2097207687
 10
553.4405028043
 20
-604.7956911865
 10
559.3324663486
 20
-605.1789322094
 10
565.2535859186
 20
-605.3580719339
 10
571.1826654431
 20
-605.3324690864
 10
577.0984803562
 20
-605.1022153182
 10
582.9798535758
 20
-604.6681348783
 10
588.8057313123
 20
-604.0317816619
 10
594.5552584353
 20
-603.1954336483
 10
600.2078531301
 20
-602.1620847464
 10
605.7432805745
 20
-600.9354340771
 10
611.1417253751
 20
-599.5198727314
 10
616.3838625005
 20
-597.9204680515
 10
621.4509264603
 20
-596.1429454911
 10
626.3247784806
 20
-594.1936681196
 10
630.9879714362
 20
-592.0796138442
 10
635.4238123065
 20
-589.8083504304
 10
639.6164219325
 20
-587.3880084117
 10
643.5507918598
 20
-584.8272519845
 10
647.2128380652
 20
-582.1352479922
 10
650.5894513737
 20
-579.3216331103
 10
653.668544386
 20
-576.39647935
 10
656.4390947483
 20
-573.3702580024
 10
658.8911846094
 20
-570.2538021547
 10
661.0160361239
 20
-567.0582679098
 10
662.8060428748
 20
-563.7950944512
 10
664.2547971027
 20
-560.4759630927
 10
665.3571126433
 20
-557.1127554633
 10
666.1090434931
 20
-553.7175109735
 10
666.5078979348
 20
-550.3023837172
 10
666.5522481731
 20
-546.8795989637
 10
666.2419354456
 20
-543.4614093941
 10
665.5780705912
 20
-540.06005124
 10
664.563030074
 20
-536.6877004807
 10
663.2004474755
 20
-533.3564292567
 10
661.4952004878
 20
-530.0781626544
 10
659.4533934525
 20
-526.8646360174
 10
657.0823355089
 20
-523.7273529371
 10
654.3905144291
 20
-520.6775440727
 10
651.3875662338
 20
-517.7261269483
 10
648.0842406983
 20
-514.8836668713
 10
644.4923628707
 20
-512.1603391109
 10
640.6247907413
 20
-509.5658924739
 10
636.4953692146
 20
-507.1096144058
 10
632.118880548
 20
-504.8002977446
 10
627.5109914349
 20
-502.6462092445
 10
622.6881969226
 20
-500.6550599835
 10
617.6677613637
 20
-498.8339777589
 10
612.4676566145
 20
-497.1894815727
 10
607.1064977004
 20
-495.7274582943
 10
601.6034761789
 20
-494.4531415875
 10
595.9782914388
 20
-493.3710931756
 10
590.2510801816
 20
-492.4851865109
 10
584.4423443371
 20
-491.7985929095
 10
578.5728776721
 20
-491.3137701981
 10
572.663691354
 20
-491.0324539163
 10
566.735938736
 20
-490.9556511034
 10
560.8108396341
 20
-491.0836366935
 10
554.9096043654
 20
-491.4159525314
 10
549.0533578204
 20
-491.9514090126
 10
543.263063842
 20
-492.6880893419
 10
537.5594501798
 20
-493.623356395
 10
531.9629342904
 20
-494.7538621584
 10
526.4935502481
 20
-496.0755597151
 10
521.1708770284
 20
-497.5837177308
 10
516.01396842
 20
-499.2729373911
 10
511.0412848173
 20
-501.1371717281
 10
506.270627137
 20
-503.1697472668
 10
501.7190730954
 20
-505.3633879141
 10
497.4029160747
 20
-507.7102410061
  0
LWPOLYLINE
  5
E8
330
1F
100
AcDbEntity
  8
0
  6
Continuous
 62
     1
370
    25
100
AcDbPolyline
 90
       15
 70
   128
 43
0.0
 10
647.0267109738
 20
-378.5343736562
 10
651.4870877387
 20
-380.9647802578
 10
655.9334305081
 20
-383.0985117089
 10
660.3517494426
 20
-384.9288545011
 10
664.7281428764
 20
-386.4500496988
 10
669.0488410565
 20
-387.657311059
 10
673.3002494679
 20
-388.5468400909
 10
677.468991607
 20
-389.1158380071
 10
681.5419510686
 20
-389.3625145296
 10
685.5063128155
 20
-389.2860935227
 10
689.349603499
 20
-388.8868154353
 10
693.0597307045
 20
-388.165936544
 10
696.6250209995
 20
-387.1257250004
 10
700.0342566614
 20
-385.7694536949
 10
703.2721396846
 20
-384.1040293368
  0
LWPOLYLINE
  5
E9
330
1F
100
AcDbEntity
  8
0
  6
Continuous
 62
     1
370
    25
100
AcDbPolyline
 90
       44
 70
   128
 43
0.0
 10
590.781282263
 20
-189.2430353012
 10
590.7767109738
 20
-189.2456746792
 10
587.7112399719
 20
-191.2202825003
 10
584.8323973865
 20
-193.4952215596
 10
582.1492411212
 20
-196.0633340572
 10
579.6702133785
 20
-198.9165397611
 10
577.4031140967
 20
-202.0458614305
 10
575.355076409
 20
-205.4414530618
 10
573.5325441995
 20
-209.0926308674
 10
571.9412518289
 20
-212.9879068911
 10
570.5862060917
 20
-217.1150251535
 10
569.4716704632
 20
-221.4610002136
 10
568.6011516847
 20
-226.012158026
 10
567.9773887304
 20
-230.7541789645
 10
567.6023441893
 20
-235.6721428768
 10
567.4771980903
 20
-240.750576029
 10
567.6023441893
 20
-245.9734997915
 10
567.9773887304
 20
-251.3244809139
 10
568.6011516847
 20
-256.78668323
 10
569.4716704632
 20
-262.3429206303
 10
570.5862060917
 20
-267.9757111365
 10
571.9412518289
 20
-273.6673319056
 10
573.5325441995
 20
-279.3998749931
 10
575.355076409
 20
-285.1553036975
 10
577.4031140967
 20
-290.9155093108
 10
579.6702133785
 20
-296.6623680952
 10
582.1492411212
 20
-302.3777983067
 10
584.8323973865
 20
-308.0438170873
 10
587.7112399719
 20
-313.6425970459
 10
590.7767109738
 20
-319.1565223492
 10
594.0191652861
 20
-324.5682441483
 10
597.4284009481
 20
-329.8607351644
 10
600.993691243
 20
-335.0173432625
 10
604.7038184486
 20
-340.0218438459
 10
608.547109132
 20
-344.8584909043
 10
612.5114708789
 20
-349.5120665567
 10
616.5844303406
 20
-353.9679289322
 10
620.7531724796
 20
-358.2120582396
 10
625.0045808911
 20
-362.2311008776
 10
629.3252790712
 20
-366.0124114514
 10
633.7016725049
 20
-369.5440925589
 10
638.1199914395
 20
-372.8150322247
 10
642.5663342089
 20
-375.8149388625
 10
647.0267109738
 20
-378.5343736562
  0
LWPOLYLINE
  5
EA
330
1F
100
AcDbEntity
  8
0
  6
Continuous
 62
     1
370
    25
100
AcDbPolyline
 90
       15
 70
   128
 43
0.0
 10
647.0267109738
 20
-378.5343736562
 10
651.3619416396
 20
-381.181539659
 10
655.4332398679
 20
-383.9648673085
 10
659.2277958482
 20
-386.8755992263
 10
662.7336705035
 20
-389.9045771728
 10
665.939833055
 20
-393.0422708629
 10
668.8361957293
 20
-396.2788079512
 10
671.4136454978
 20
-399.6040050948
 10
673.66407275
 20
-403.0073999933
 10
675.5803968091
 20
-406.4782843071
 10
677.1565882107
 20
-410.00573735
 10
678.3876876736
 20
-413.5786604499
 10
679.2698217033
 20
-417.1858118687
 10
679.8002147798
 20
-420.8158421736
 10
679.9771980903
 20
-424.4573299462
  0
LWPOLYLINE
  5
EB
330
1F
100
AcDbEntity
  8
0
  6
Continuous
 62
     1
370
    25
100
AcDbPolyline
 90
       43
 70
   128
 43
0.0
 10
454.9771980903
 20
-424.4573299462
 10
455.1541814008
 20
-420.8158421736
 10
455.6845744773
 20
-417.1858118687
 10
456.566708507
 20
-413.5786604499
 10
457.7978079698
 20
-410.00573735
 10
459.3739993715
 20
-406.4782843071
 10
461.2903234306
 20
-403.0073999933
 10
463.5407506828
 20
-399.6040050948
 10
466.1182004513
 20
-396.2788079512
 10
469.0145631256
 20
-393.0422708629
 10
472.2207256771
 20
-389.9045771728
 10
475.7266003324
 20
-386.8755992263
 10
479.5211563126
 20
-383.9648673085
 10
483.5924545409
 20
-381.181539659
 10
487.9276852068
 20
-378.5343736562
 10
492.5132080707
 20
-376.0316982637
 10
497.3345953812
 20
-373.6813878243
 10
502.3766772701
 20
-371.490837284
 10
507.6235894823
 20
-369.4669389254
 10
513.058823291
 20
-367.6160606815
 10
518.6652774396
 20
-365.9440260999
 10
524.4253119492
 20
-364.45609602
 10
530.3208036203
 20
-363.1569520204
 10
536.333203055
 20
-362.0506816887
 10
542.4435930202
 20
-361.1407657606
 10
548.6327479685
 20
-360.4300671684
 10
554.8811945287
 20
-359.9208220326
 10
561.1692727761
 20
-359.614632627
 10
567.4771980903
 20
-359.5124623366
 10
573.7851234045
 20
-359.614632627
 10
580.0732016519
 20
-359.9208220326
 10
586.3216482121
 20
-360.4300671684
 10
592.5108031604
 20
-361.1407657606
 10
598.6211931256
 20
-362.0506816887
 10
604.6335925603
 20
-363.1569520204
 10
610.5290842314
 20
-364.45609602
 10
616.289118741
 20
-365.9440260999
 10
621.8955728896
 20
-367.6160606815
 10
627.3308066983
 20
-369.4669389254
 10
632.5777189105
 20
-371.490837284
 10
637.6198007994
 20
-373.6813878243
 10
642.4411881099
 20
-376.0316982637
 10
647.0267109738
 20
-378.5343736562
  0
ENDSEC
  0
SECTION
  2
OBJECTS
  0
DICTIONARY
  5
C
330
0
100
AcDbDictionary
281
     1
  3
ACAD_GROUP
350
D
  3
ACAD_LAYOUT
350
1A
  3
ACAD_MLINESTYLE
350
17
  3
ACAD_PLOTSETTINGS
350
19
  3
ACAD_PLOTSTYLENAME
350
E
  3
ACAD_SCALELIST
350
47
  3
DWGPROPS
350
EC
  0
DICTIONARY
  5
D
102
{ACAD_REACTORS
330
C
102
}
330
C
100
AcDbDictionary
281
     1
  0
DICTIONARY
  5
1A
102
{ACAD_REACTORS
330
C
102
}
330
C
100
AcDbDictionary
281
     1
  3
Layout1
350
1E
  3
Layout2
350
26
  3
Model
350
22
  0
DICTIONARY
  5
17
102
{ACAD_REACTORS
330
C
102
}
330
C
100
AcDbDictionary
281
     1
  3
Standard
350
18
  0
DICTIONARY
  5
19
102
{ACAD_REACTORS
330
C
102
}
330
C
100
AcDbDictionary
281
     1
  0
ACDBDICTIONARYWDFLT
  5
E
102
{ACAD_REACTORS
330
C
102
}
330
C
100
AcDbDictionary
281
     1
  3
Normal
350
F
100
AcDbDictionaryWithDefault
340
F
  0
DICTIONARY
  5
47
102
{ACAD_REACTORS
330
C
102
}
330
C
100
AcDbDictionary
281
     1
  3
A0
350
48
  3
A1
350
49
  3
A2
350
4A
  3
A3
350
4B
  3
A4
350
4C
  3
A5
350
4D
  3
A6
350
4E
  3
A7
350
4F
  3
A8
350
50
  3
A9
350
51
  3
B0
350
52
  3
B1
350
53
  3
B2
350
54
  3
B3
350
55
  3
B4
350
56
  3
B5
350
57
  3
B6
350
58
  3
B7
350
59
  3
B8
350
5A
  3
B9
350
5B
  3
C0
350
5C
  3
C1
350
5D
  3
C2
350
5E
  3
C3
350
5F
  3
C4
350
60
  3
C5
350
61
  3
C6
350
62
  3
C7
350
63
  3
C8
350
64
  3
C9
350
65
  3
D0
350
66
  3
D1
350
67
  3
D2
350
68
  0
XRECORD
  5
EC
102
{ACAD_REACTORS
330
C
102
}
330
C
100
AcDbXrecord
280
     1
  1
DWGPROPS COOKIE
  2

  3

  4

  6

  7

  8
b.kav
  9

300
=
301
=
302
=
303
=
304
=
305
=
306
=
307
=
308
=
309
=
 40
0.0
 41
2459935.574890787
 42
2459935.574890972
  1

 90
        0
  0
LAYOUT
  5
1E
102
{ACAD_REACTORS
330
1A
102
}
330
1A
100
AcDbPlotSettings
  1

  2
none_device
  4

  6

 40
0.0
 41
0.0
 42
0.0
 43
0.0
 44
0.0
 45
0.0
 46
0.0
 47
0.0
 48
0.0
 49
0.0
140
0.0
141
0.0
142
1.0
143
1.0
 70
   688
 72
     1
 73
     0
 74
     5
  7

 75
    16
147
1.0
148
0.0
149
0.0
100
AcDbLayout
  1
Layout1
 70
     1
 71
     1
 10
0.0
 20
0.0
 11
420.0
 21
297.0
 12
0.0
 22
0.0
 32
0.0
 14
1.0000000000E+20
 24
1.0000000000E+20
 34
1.0000000000E+20
 15
-1.0000000000E+20
 25
-1.0000000000E+20
 35
-1.0000000000E+20
146
0.0
 13
0.0
 23
0.0
 33
0.0
 16
1.0
 26
0.0
 36
0.0
 17
0.0
 27
1.0
 37
0.0
 76
     0
330
1B
  0
LAYOUT
  5
26
102
{ACAD_REACTORS
330
1A
102
}
330
1A
100
AcDbPlotSettings
  1

  2
none_device
  4

  6

 40
0.0
 41
0.0
 42
0.0
 43
0.0
 44
0.0
 45
0.0
 46
0.0
 47
0.0
 48
0.0
 49
0.0
140
0.0
141
0.0
142
1.0
143
1.0
 70
   688
 72
     1
 73
     0
 74
     5
  7

 75
    16
147
1.0
148
0.0
149
0.0
100
AcDbLayout
  1
Layout2
 70
     1
 71
     2
 10
0.0
 20
0.0
 11
0.0
 21
0.0
 12
0.0
 22
0.0
 32
0.0
 14
0.0
 24
0.0
 34
0.0
 15
0.0
 25
0.0
 35
0.0
146
0.0
 13
0.0
 23
0.0
 33
0.0
 16
1.0
 26
0.0
 36
0.0
 17
0.0
 27
1.0
 37
0.0
 76
     0
330
23
  0
LAYOUT
  5
22
102
{ACAD_REACTORS
330
1A
102
}
330
1A
100
AcDbPlotSettings
  1

  2
none_device
  4
Letter_(8.50_x_11.00_Inches)
  6

 40
6.35
 41
6.35
 42
6.35000508
 43
6.35000508
 44
215.9
 45
279.4
 46
0.0
 47
0.0
 48
0.0
 49
0.0
140
0.0
141
0.0
142
1.0
143
1.0
 70
  1712
 72
     1
 73
     0
 74
     0
  7

 75
     0
147
1.0
148
0.0
149
0.0
100
AcDbLayout
  1
Model
 70
     1
 71
     0
 10
0.0
 20
0.0
 11
279.4
 21
215.9
 12
0.0
 22
0.0
 32
0.0
 14
0.0
 24
0.0
 34
0.0
 15
279.4
 25
215.9
 35
0.0
146
0.0
 13
0.0
 23
0.0
 33
0.0
 16
1.0
 26
0.0
 36
0.0
 17
0.0
 27
1.0
 37
0.0
 76
     0
330
1F
331
29
  0
MLINESTYLE
  5
18
102
{ACAD_REACTORS
330
17
102
}
330
17
100
AcDbMlineStyle
  2
Standard
 70
     0
  3

 62
   256
 51
90.0
 52
90.0
 71
     2
 49
0.5
 62
   256
  6
BYLAYER
 49
-0.5
 62
   256
  6
BYLAYER
  0
ACDBPLACEHOLDER
  5
F
102
{ACAD_REACTORS
330
E
102
}
330
E
  0
SCALE
  5
48
102
{ACAD_REACTORS
330
47
102
}
330
47
100
AcDbScale
 70
     0
300
1:1
140
1.0
141
1.0
290
     1
  0
SCALE
  5
49
102
{ACAD_REACTORS
330
47
102
}
330
47
100
AcDbScale
 70
     0
300
1:2
140
1.0
141
2.0
290
     0
  0
SCALE
  5
4A
102
{ACAD_REACTORS
330
47
102
}
330
47
100
AcDbScale
 70
     0
300
1:4
140
1.0
141
4.0
290
     0
  0
SCALE
  5
4B
102
{ACAD_REACTORS
330
47
102
}
330
47
100
AcDbScale
 70
     0
300
1:5
140
1.0
141
5.0
290
     0
  0
SCALE
  5
4C
102
{ACAD_REACTORS
330
47
102
}
330
47
100
AcDbScale
 70
     0
300
1:8
140
1.0
141
8.0
290
     0
  0
SCALE
  5
4D
102
{ACAD_REACTORS
330
47
102
}
330
47
100
AcDbScale
 70
     0
300
1:10
140
1.0
141
10.0
290
     0
  0
SCALE
  5
4E
102
{ACAD_REACTORS
330
47
102
}
330
47
100
AcDbScale
 70
     0
300
1:16
140
1.0
141
16.0
290
     0
  0
SCALE
  5
4F
102
{ACAD_REACTORS
330
47
102
}
330
47
100
AcDbScale
 70
     0
300
1:20
140
1.0
141
20.0
290
     0
  0
SCALE
  5
50
102
{ACAD_REACTORS
330
47
102
}
330
47
100
AcDbScale
 70
     0
300
1:30
140
1.0
141
30.0
290
     0
  0
SCALE
  5
51
102
{ACAD_REACTORS
330
47
102
}
330
47
100
AcDbScale
 70
     0
300
1:40
140
1.0
141
40.0
290
     0
  0
SCALE
  5
52
102
{ACAD_REACTORS
330
47
102
}
330
47
100
AcDbScale
 70
     0
300
1:50
140
1.0
141
50.0
290
     0
  0
SCALE
  5
53
102
{ACAD_REACTORS
330
47
102
}
330
47
100
AcDbScale
 70
     0
300
1:100
140
1.0
141
100.0
290
     0
  0
SCALE
  5
54
102
{ACAD_REACTORS
330
47
102
}
330
47
100
AcDbScale
 70
     0
300
2:1
140
2.0
141
1.0
290
     0
  0
SCALE
  5
55
102
{ACAD_REACTORS
330
47
102
}
330
47
100
AcDbScale
 70
     0
300
4:1
140
4.0
141
1.0
290
     0
  0
SCALE
  5
56
102
{ACAD_REACTORS
330
47
102
}
330
47
100
AcDbScale
 70
     0
300
8:1
140
8.0
141
1.0
290
     0
  0
SCALE
  5
57
102
{ACAD_REACTORS
330
47
102
}
330
47
100
AcDbScale
 70
     0
300
10:1
140
10.0
141
1.0
290
     0
  0
SCALE
  5
58
102
{ACAD_REACTORS
330
47
102
}
330
47
100
AcDbScale
 70
     0
300
100:1
140
100.0
141
1.0
290
     0
  0
SCALE
  5
59
102
{ACAD_REACTORS
330
47
102
}
330
47
100
AcDbScale
 70
     0
300
1/128" = 1'-0"
140
0.0078125
141
12.0
290
     0
  0
SCALE
  5
5A
102
{ACAD_REACTORS
330
47
102
}
330
47
100
AcDbScale
 70
     0
300
1/64" = 1'-0"
140
0.015625
141
12.0
290
     0
  0
SCALE
  5
5B
102
{ACAD_REACTORS
330
47
102
}
330
47
100
AcDbScale
 70
     0
300
1/32" = 1'-0"
140
0.03125
141
12.0
290
     0
  0
SCALE
  5
5C
102
{ACAD_REACTORS
330
47
102
}
330
47
100
AcDbScale
 70
     0
300
1/16" = 1'-0"
140
0.0625
141
12.0
290
     0
  0
SCALE
  5
5D
102
{ACAD_REACTORS
330
47
102
}
330
47
100
AcDbScale
 70
     0
300
3/32" = 1'-0"
140
0.09375
141
12.0
290
     0
  0
SCALE
  5
5E
102
{ACAD_REACTORS
330
47
102
}
330
47
100
AcDbScale
 70
     0
300
1/8" = 1'-0"
140
0.125
141
12.0
290
     0
  0
SCALE
  5
5F
102
{ACAD_REACTORS
330
47
102
}
330
47
100
AcDbScale
 70
     0
300
3/16" = 1'-0"
140
0.1875
141
12.0
290
     0
  0
SCALE
  5
60
102
{ACAD_REACTORS
330
47
102
}
330
47
100
AcDbScale
 70
     0
300
1/4" = 1'-0"
140
0.25
141
12.0
290
     0
  0
SCALE
  5
61
102
{ACAD_REACTORS
330
47
102
}
330
47
100
AcDbScale
 70
     0
300
3/8" = 1'-0"
140
0.375
141
12.0
290
     0
  0
SCALE
  5
62
102
{ACAD_REACTORS
330
47
102
}
330
47
100
AcDbScale
 70
     0
300
1/2" = 1'-0"
140
0.5
141
12.0
290
     0
  0
SCALE
  5
63
102
{ACAD_REACTORS
330
47
102
}
330
47
100
AcDbScale
 70
     0
300
3/4" = 1'-0"
140
0.75
141
12.0
290
     0
  0
SCALE
  5
64
102
{ACAD_REACTORS
330
47
102
}
330
47
100
AcDbScale
 70
     0
300
1" = 1'-0"
140
1.0
141
12.0
290
     0
  0
SCALE
  5
65
102
{ACAD_REACTORS
330
47
102
}
330
47
100
AcDbScale
 70
     0
300
1-1/2" = 1'-0"
140
1.5
141
12.0
290
     0
  0
SCALE
  5
66
102
{ACAD_REACTORS
330
47
102
}
330
47
100
AcDbScale
 70
     0
300
3" = 1'-0"
140
3.0
141
12.0
290
     0
  0
SCALE
  5
67
102
{ACAD_REACTORS
330
47
102
}
330
47
100
AcDbScale
 70
     0
300
6" = 1'-0"
140
6.0
141
12.0
290
     0
  0
SCALE
  5
68
102
{ACAD_REACTORS
330
47
102
}
330
47
100
AcDbScale
 70
     0
300
1'-0" = 1'-0"
140
12.0
141
12.0
290
     0
  0
ENDSEC
  0
EOF
